Peggy Sue
Artist : Blink 182
Title : Peggy Sue
Tabbed By : Rishesh Singh (XtremeDimon@icqmail.com)




Intro: [Kind of accurate]


e----0------0---2---------0----------------------0-----------------------
B---2-2----2-2--3--------2-2-----------7-7-7----2-2----------------------
G-2------2------2------2------9-9-9--7--7-7---2--------------------------
D-2------2------0------2------9--9---7--------2--------------------------
A-0------0-------------0------7------5--------0--------------------------
E------------------------------------------------------------------------

VERSE: Muted x4
e------------------------------------------------------------------------
B------------------------------------------------------------------------
G-----------------------------7-7-7-7-7-7-7------------------------------
D-7-7-7-7-7-7-7-4-4-4-4-4-4-4-7-7-7-7-7-7-7-2-2-4-2----------------------
A-7-7-7-7-7-7-7-4-4-4-4-4-4-4-5-5-5-5-5-5-5-2-2-4-2----------------------
E-5-5-5-5-5-5-5-2-2-2-2-2-2-2---------------0-0-2-0----------------------

Chorus:
e------------------------------------------------------------------------
B------------------------------------------------------------------------
G-7-7-7-7-7-7-7-7-----------------7-7-7-7-7-7-7-7---------9-9-9-9--------
D-7-7-7-7-7-7-7-7-7-7-7-7-7-7-7-7-7-7-7-7-7-7-7-7-7-7-7-7-9-9-9-9--------
A-5-5-5-5-5-5-5-5-7-7-7-7-7-7-7-7-5-5-5-5-5-5-5-5-7-7-7-7-7-7-7-7--------
E-----------------5-5-5-5-5-5-5-5-----------------5-5-5-5----------------

Outro:
e------------------------------------------------------------------------
B-2-3-5-2-3-5--5-3-2----2-3-5-2-3-5--5-3-2-------------------------------
G--------------------2---------------------2-----------------------------
D------------------------------------------------------------------------
A------------------------------------------------------------------------
E------------------------------------------------------------------------