Click here if you don't want to change your tuning
Adam's Song
Song:Adam's Song
Artist:Blink-182
Album:Enema Of The State
submitted By:Alex Harbin(geekstink86@punkjunk.com)

/-------------------------------------------------\
|check out my website http://rehabrejects.web.com |
\-------------------------------------------------/

this song is completely accurate because i copied it out of the tab
book

Gtrs. 1,2,3&5 Gtr.4 Drop D Tuning
Tune Down One Whole Step: Tune Down One Whole Step
1=D 4=C 1=D 4=C
2=A 5=G 2=A 5=G
3=F 6=D 3=F 6=C
Intro

|-------------------------------------------------------|
|--------------------------|----------------------------|
|--------------------------|----------------------------|
|------4---0-------4---0---|--------4---0-------4---0---|
|---2----------2-----------|---0------------0-----------|
|--------------------------|----------------------------|

|--------------------------|----------------------------|
|--------------------------|----------------------------|
|--------------------------|----------------------------|
|-------4---0------4---0---|--------4---0--------4---0--|
|--------------------------|----------------------------|
|---3-----------3----------|----0-------------3---------|


Verse
Palm Mute
|--------------------------|---------------------------|
|--------------------------|---------------------------|
|--------------------------|---------------------------|
|--4--4--4--4--4--4--4--4--|---------------------------|
|--5--5--5--5--5--5--5--5--|--5--5--5--5--5--5--5--5---|
|--------------------------|--3--3--3--3--3--3--3--3---|

|--------------------------|---------------------------|
|--------------------------|---------------------------|
|--------------------------|---------------------------|
|--------------------------|---------------------------|
|--9--9--9--9--9--9--9--9--|--5--5--5--5--5--5--5--5---|
|--7--7--7--7--7--7--7--7--|--3--3--3--3--3--3--3--3---|

Interlude
|-----------------------|------------------------------|
|-----------------------|------------------------------|
|--------0----------0---|-----------0-------------0----|
|-----7----------7------|--------9-----------9---------|
|--5---------5----------|----7-----------7-------------|
|-----------------------|------------------------------|

|----------------------|-------------------------------|
|----------------------|-------------------------------|
|----------------------|-------------------------------|
|-----4--0-----4--0----|-------4--0-------4--0---------|
|--2---------2---------|-------------------------------|
|----------------------|---3----------3----------------|


Chorus

|--------------------------|------------------------|
|--------------------------|------------------------|
|--7--7--7--7--7--7--7--7--|--9--9--9--9--9--9--9---|
|--x--x--x--x--x--x--x--x--|--x--x--x--x--x--x--x---|
|--5--5--5--5--5--5--5--5--|--7--7--7--7--7--7--7---|
|--------------------------|------------------------|

|-------------------------|-----------------------|
|-------------------------|-----------------------|
|-4--4--4--4--4--4--4--4--|-----------------------|
|-x--x--x--x--x--x--x--x--|-5--5--5--5--5--5--5---|
|-2--2--2--2--2--2--2--2--|-x--x--x--x--x--x--x---|
|-------------------------|-3--3--3--3--3--3--3---|

|--------------------------|----------------------------|
|--------------------------|----------------------------|
|--7--7--7--7--7--7--7--7--|-12-12-12-12-12-12-12-12-12-|
|--x--x--x--x--x--x--x--x--|--x--x--x--x--x--x--x--x--x-|
|--9--9--9--9--9--9--9--9--|-10-10-10-10-10-10-10-10-10-|
|--------------------------|----------------------------|
days when still felt alive
|--------------------------|---------------------------|
|--------------------------|---------------------------|
|-11-11-11-11-11-11-11-11--|-12-12-12-12-12-12-12-12---|
|--x--x--x--x--x--x--x--x--|--x--x--x--x--x--x--x--x---|
|--9--9--9--9--9--9--9--9--|-10-10-10-10-10-10-10-10---|
|--------------------------|---------------------------|
we couldn't wait to get out

|--------------------------|---------------------------|
|--------------------------|---------------------------|
|-11-11-11-11-11-11-11-11--|-12-12-12-12-12-12-12-12---|
|--x--x--x--x--x--x--x--x--|--x--x--x--x--x--x--x--x---|
|--9--9--9--9--9--9--9--9--|-10-10-10-10-10-10-10-10---|
|--------------------------|---------------------------|
out side the world was wide to late to try
|--------------------------|--------------------------|
|--------------------------|--------------------------|
|-11-11-11-11-11-11-11-11--|--7--7--7--7--7--7--7--7--|
|--x--x--x--x--x--x--x--x--|--x--x--x--x--x--x--x--x--|
|--9--9--9--9--9--9--9--9--|--5--5--5--5--5--5--5--5--|
|--------------------------|--------------------------|
the tour was over we'd survive

Interlude


Gtr.1
|-------------------------|----------------------------|
|-------------------------|----------------------------|
|--------0---------0------|-----0------0------0--------|
|-----4--------4-------4--|---4------4------4-------4--|
|--5--------5--------5----|-5-----5-------5------5-----|
|-------------------------|----------------------------|
Gtr.1
|-------------------------|----------------------------|
|-------------------------|----------------------------|
|-------0--------0--------|---------0------------------|
|-----4--------4-------4--|------4------0-----0-----0--|
|--5--------5-------5-----|---5------------5-----5-----|
|-------------------------|----------------------------|


|-------------------------|----------------------------|
|-------------------------|----------------------------|
|------0------0-----------|-------0--------------------|
|----4-----------4------4-|-----4-------4-----0--------|
|--5-------5---------5----|--5--------5----5------5----|
|-------------------------|----------------------------|

|-------------------------|----------------------------|
|-------------------------|----------------------------|
|-------------------------|----------------------------|
|-------2-----2-------2/--|-\0----4----------0---------|
|-----2-------------------|-----0-------2--------------|
|--5-------5------5-------|----------5-----------------|

|-------------------------|----------------------------|
|-------------------------|----------------------------|
|-------0------0----------|-------0--------------------|
|----4-----------4----0---|----4--------4-----0--------|
|-5---------5------5----5-|--5-------5-----5------5----|
|-------------------------|----------------------------|

|-------------------------|----------------------------|
|-------------------------|----------------------------|
|-------------------------|-------------------0--------|
|--------2------2-----2/--|-\0------4------4-----------|
|-----2-------------------|------5------5----------5---|
|--5---------5-----5------|----------------------------|

2X
|-------------------------|----------------------------|
|-------------------------|----------------------------|
|--------7---------7------|--7--------7---------7------|
|-----0--------0--------0-|--------0--------0------0---|
|--5--------5---------5---|-----5--------5-------------|
|-------------------------|----------------------------|

|-------------------------|----------------------------|
|-------------------------|----------------------------|
|--------7-------7--------|--7--------7----------7-----|
|-----0-------0-------0---|--------0----------0-----0--|
|--5--------5------5------|-----5---------5------------|
|-------------------------|----------------------------|


Gtr.3 keyboard Arranged For Guitar
|-------------------------|----------------------------|
|-------------------------|---3------------------------|
|-------------------------|----------------------------|
|--0----------------------|----------------------------|
|-------------------------|----------------------------|
|-------------------------|----------------------------|

|-------------------------|
|--------------------3----|
|--2----------------------|
|-------------------------|
|-------------------------|
|-------------------------|


Gtr.5 keyboard Arranged For Guitar
|--2----------------------|--2-----------------------|
|-------------3-----------|--------------------------|
|------------------2------|--------------------------|
|-------------------------|--------------------------|
|-------------------------|--------------------------|
|-------------------------|--------------------------|

|-------------------------|--------------------------|
|--3----------------------|----------------3---------|
|-------------------------|--2-----------------------|
|-------------------------|--------------------------|
|-------------------------|--------------------------|
|-------------------------|--------------------------|

|--2----------------------|--------------------------|
|--------------3----------|--3-----------------------|
|-------------------2-----|--------------------------|
|-------------------------|--------------------------|
|-------------------------|--------------------------|
|-------------------------|--------------------------|