Untitled
Artist : Blink 182
Title : Untitled
Tabbed By : Rishesh Singh (XtremeDimon@icqmail.com)

Verse:
e-|-----------------------------------------------------------|
B-|-----------------------------------------------------------|
G-|-----------------------------------------------------------|
D-|-4-4-4-4-4----4-4-4-4-4-4-4-4------------------------------|
A-|-2-2-2-2-2----2-2-2-2-2-2-2-2-2-2-2-2-2----4-4-4-4-4-4-4-4-|
E-|------------------------------0-0-0-0-0----2-2-2-2-2-2-2-2-|

First chorus:
e-|----------------------------------------------------------|
B-|----------------------------------------------------------|
G-|----6-8-9--9-8----4-6----4-6----4-6-9--9-8----6-8----9----|
D-|-6--6-8-9--9-8-9--4-6-4--4-6-6--4-6-9--9-8-9--6-8-4--9--9-|
A-|-6--4-6-7--7-6-9--2-4-4--2-4-6--2-4-7--7-6-9--4-6-4--7--9-|
E-|-4-------------7------2------4-------------7------2-----7-|

Every chorus after that one:
e-|--------------------------------------------------------------------------
B-|--------------------------------------------------------------------------
G-|--------------------------------------------------------------------------
D-|-----------------9-9-9-9-9-9-9-9------------------------------------------
A-|-6-6-6-6-6-6-6-6-7-7-7-7-7-7-7-7-9-9-9-9-9-9-9-9-4-4-4-4-4-4-4-4--6-6-6-6-
E-|-4-4-4-4-4-4-4-4-----------------7-7-7-7-7-7-7-7-2-2-2-2-2-2-2-2--4-4-4-4-

e-|---------------------------------------------------------|
B-|---------------------------------------------------------|
G-|---------------------------------------------------------|
D-|---------9-9-9-9-9-9-9-9-------------------------9-9-9-9-|
A-|-6-6-6-6-7-7-7-7-7-7-7-7-9-9-9-9-9-9-9-9-4-4-4-4-7-7-7-7-|
E-|-4-4-4-4-----------------7-7-7-7-7-7-7-7-2-2-2-2---------|

Part thats just guitar after first chorus:
e-|-----------------------------------------------------------------|
B-|-----------------------------------------------------------------|
G-|-----------------------------------------------------------------|
D-|-4-4-4-4-4-4-4-4---------------------------------9-9-9-9-9-9-8-8-|
A-|-2-2-2-2-2-2-2-2-6-6-6-6-6-6-6-6-4-4-4-4-4-4-4-4-7-7-7-7-7-7-6-6-|
E-|-----------------4-4-4-4-4-4-4-4-2-2-2-2-2-2-2-2-----------------|

Part after the bass plays by itself:
e-|----------------------------------------------------------------|
B-|----------------------------------------------------------------|
G-|-4-4-4-4-4-4-4-4-4-4-4-4-4-4-4-4-4-4-4-4-4-4-4-4-4-4-4-4-4-4--9-|
D-|-x-x-x-x-x-x-x-x-x-x-x-x-x-x-x-x-x-x-x-x-x-x-x-x-x-x-x-x-x-x--x-|
A-|-2-2-2-2-2-2-2-2-2-2-2-2-2-2-2-2-2-2-2-2-2-2-2-2-2-2-2-2-2-2--7-|
E-|----------------------------------------------------------------|