What's My Age Again?
Song: What's My Age Again?
Album: Enema of the State
Band: Blink 182
Tabbed by ZZ_monkey


Intro\first verse:

e|-----6-------6-------6-------6----|
B|---7---7---7---7---7---7---7---7--|
G|-4--------------------------------|
D|---------4------------------------|
A|-----------------4-------6--------|
E|----------------------------------|

Chorus:

e|----------------------------------|
B|----------------------------------|
G|----6-8-44444---------------------|
D|--4-6-8-44444---------------------|
A|--4-4-6-22222---------------------|
E|--2-------------------------------|

e|----------------------------------|
B|----------------------------------|
G|-------6666-8888-44444------------|
D|--4444-6666-8888-44444------------|
A|--4444-4444-6888-22222------------|
E|--2222----------------------------|

End of Chorus:

e|----------------------------------|
B|----------------------------------|
G|----888888-666666--8--------------|
D|----888888-666666--8--------------|
A|----666666-444444--6--------------|
E|----------------------------------|

The second verse is the chorus but muted


That's it. I'm not sure about the middle of the song though,
so I didn't tab it. Thanks. This is my first tab. ZZ