Aliens Exist
Enema of the State
Blink 182
By:Court Koehler
courtkoehler@hotmail.com

x = muted string
>>> = let ring
/ = slide

INTRO:
e|--------------------------------------------------------------------|
B|--------------------------------------------------------------------|
G|--------------------------------------------------------------------|
D|-5-5-5-5-5-5-5-5-7-7-7-7-8-8-8-8-11---------------------------------|
A|-5-5-5-5-5-5-5-5-7-7-7-7-8-8-8-8-11->>>>>>>>>>>>--------------------|
E|-3-3-3-3-3-3-3-3-5-5-5-5-6-6-6-6-9----------------------------------|
(These Chords are muted) "Hey mom......"

BETWEEN 1ST AND SENCOND VERSES:
e|---------|----------------------------------------------------------|
B|---------|----------------------------------------------------------|
G|--pick---|----4-4-4-xxxx--------------------------------------------|
D|-slide---|----4-4-4-xxxx-4-4-xx-6-6-6-xxxx-4-4-xx-------------------|
A|-\-\-\---|----2-2-2-xxxx-4-4-xx-6-6-6-xxxx-4-4-xx-------------------|
E|---------|---------------2-2-xx-4-4-4-xxxx-2-2-xx-------------------|
(play twice)
*for the second verse just play these same chords, only
mute them and play them all in eighth notes

CHORUS:
e|--------------------------------------------------------------------|
B|--------------------------------------------------------------------|
G|-4-4-4-4-4-4-4-4-----------------4-4-4-4-4-4-4-4--------------------|
D|-4-4-4-4-4-4-4-4-4-4-4-4-4-4-4-4-4-4-4-4-4-4-4-4-4-4-4-4-4-4-4-4----|
A|-2-2-2-2-2-2-2-2-4-4-4-4-4-4-4-4-2-2-2-2-2-2-2-2-4-4-4-4-4-4-4-4----|
E|-----------------2-2-2-2-2-2-2-2-----------------2-2-2-2-2-2-2-2----|
"up all night long...."
e|-----------------------------------|--------------------------------|
B|-----------------------------------|--------------------------------|
G|-----------------------------------|---play twice-------------------|
D|-----------------------------------|--------------------------------|
A|-444-444-444-444-777-777-777-777---|--------------------------------|
E|-222-222-222-222-555-555-555-555---|--------------------------------|
"and i know it must be late..."
e|--------------------------------------------------------------------|
B|--------------------------------------------------------------------|
G|---------4--------4--------------------4----------------------------|
D|-4-------4->>>>---4-->>>>-4------------4->>>>-----------------------|
A|-4->>>>--2--------2-------4->>>>-------2----------------------------|
E|-2------------------------2-----------------------------------------|
"I'm not like you guys....I'm not like you"

INTERLUDE:
Guitar 1 Plays: (play twice)
e|--------------------------------------------------------------------|
B|--------------------------------------------------------------------|
G|-444-444-444-444-444-444-444-444-444-444-444-444-444-444-444-444----|
D|-222-222-222-222-222-222-222-222-222-222-222-222-222-222-222-222----|
A|--------------------------------------------------------------------|
E|--------------------------------------------------------------------|

While Guitar 2 Plays: (begining 2nd time)
e|--------------------------------------------------------------------|
B|--------------------------------------------------------------------|
G|--4---4---4---4-----------------------------------------------------|
D|------------------4---4---4---4---6---6---6---6---4---4---4---4-----|
A|--------------------------------------------------------------------|
E|--------------------------------------------------------------------|

Just follow these patterns through the rest of the song. Have fun.
Questions, comments, marriage proposals can be sent to my e-mail.
========================================================================