Don't leave me

Song: Don't Leave Me
Performer: Blink 182
Album: Enema of the State
Tabbed by: Mike Forbis (Mikerbfltj@aol.com)

Intro: (Repeat 2x)

e------------------------------------------|
B------------------------------------------|
G------------xxxx-7---xxxx-4---7777-9999---|
D---xxxx-7---xxxx-7---xxxx-4---7777-9999---|
A---xxxx-7---xxxx-5---xxxx-2---5555-7777---|
E---xxxx-5---------------------------------|

Verse: (just let ring)

e-----------|
B-----------|
G-----------|
A----7------|
E----5------|


Chorus: (Repeat 4x)

e-------------------------------|
B-------------------------------|
G----------4444---7777---9999---|
D---7777---4444---7777---9999---|
A---7777---2222---5555---7777---|
E---5555------------------------|



Let's try this one more time with feeling..... (Repeat 8x)

e----------------------------|
B----------------------------|
G----------------------------|
D------------7-----------7---|
A--------7-----------7-------|
E---5------------5-----------|

Note: (You'll get the rythm)


Intro
Verse
Chorus
Intro
Verse
Chorus
"Let's try this one more time with feeling" part
Chorus
Verse