Anthem
Artist : Blink 182
Title : Anthem
Tabbed By: Rishesh Singh (XtremeDimon@icqmail.com)


Intro/Verse (Rhythm not shown):

e|---------------------------------------------|
B|----------------------4-4-4-4--5-5-5-5-------|
G|-4-4-4-4---4-4-4-4----4-4-4-4--4-4-4-4-------|
D|-4-4-4-4---4-4-4-4----x-x-x-x--x-x-x-x---4-4-|
A|-2-2-2-2---2-2-2-2----2-2-2-2--2-2-2-2---4-4-|
E|-----------------------------------------2-2-|

Chorus "But good things come..."
e|-------------------------------------------------------------|
b|-------------------------------------------------------------|
g|-------------------------------------------------------------|
d|--7-7-7-7-5-5-5-5-3-3-3-3-5-5-5-5----------------------------|
a|--7-7-7-7-5-5-5-5-3-3-3-3-5-5-5-5----------------------------|
E|--5-5-5-5-3-3-3-3-1-1-1-1-3-3-3-3----------------------------|


Bridge "You don't belong..."
e|-------------------------------------------------------------|
b|-------------------------------------------------------------|
g|-5-5-5-5-----------------------------------------------------|
d|-5-5-5-5-3-3-3-3-7-7-7-7-5-5-5-5-----------------------------|
a|-3-3-3-3-3-3-3-3-7-7-7-7-5-5-5-5-----------------------------|