Adam's Song
Adam's song"
Artist: Blink 182
Album: Enema of the State, 1999
Tabbed By: Josh Wyatt

okay... i've been playing this song for about 6 months now with my own
band, and it really kicks. today though i looked at some of the tabs
for it and they are all weird. no offense to anyone else, but my way is
really easier and sounds identical to the original song.


Riff A
e--------------------------------------------------
B--------------------------------------------------
G--------------------------------------------------
D----2------2-----2-----2-----2-----2-----2----2---
A--0---3--0---3-----3-----3-----3-----3-----3-----3
E----------------3-----3-----1-----1-----0----1----

Verse
e----------------------------------------
B----------------------------------------
G--55555555----------22222222------------
D--55555555-33333333-22222222-33333333---
A--33333333-33333333-00000000-33333333---
E-----------11111111----------11111111---

Riff B
e--------------------------------------------------
B--------------------------------------------------
G----0-----0-----2-----2---------------------------
D-----3-----3--0--3--0--3----2-----2---2--3--2--3--
A--3-----3-----------------0--3--0--3----1-----1---
E--------------------------------------------------

Chorus
e----------------------------------------
B----------------------------------------
G--55555555-77777777-22222222------------
D--55555555-77777777-22222222-33333333---
A--33333333-55555555-00000000-33333333---
E-----------------------------11111111---

e------------------------------------------------
B------------------------------------------------
G--55555555-77777777-22222222-1010101010101010---
D--55555555-77777777-22222222-1010101010101010---
A--33333333-55555555-00000000-8-8-8-8-8-8-8-8----
E------------------------------------------------

e------------------------------------------------
B------------------------------------------------
G--55555555-77777777-22222222-1010101010101010---
D--55555555-77777777-22222222-1010101010101010---
A--33333333-55555555-00000000-8-8-8-8-8-8-8-8----
E------------------------------------------------

e----------------------------------------
B----------------------------------------
G--55555555-77777777-22222222------------
D--55555555-77777777-22222222-33333333---
A--33333333-55555555-00000000-33333333---
E-----------------------------11111111---

Interlude
e-------------
B-------------
G--------5----repeatedly
D-------5-----
A-------------
E-------------


Order:
Riff A x2
Verse x4
Riff B x2
Chorus
Riff A x2
Verse x4
Riff B x2
Chorus
Interlude
Chours (at the end of the last two choruses, end with
a G--5--- D--5---
A--3--- before the interlude and to end the song.)

Well that's pretty much it... e-mail me at pennywise520@home.com to tell
me what you think...